A ELBERETH!
-----------






      B5
A Elbereth Gilthoniel,
     A5           B5
silvren penna miriel
     G5       A5  F#5
o menel aglar elenath!

      B5
ooo (vocalizzato)
     A5           D5
ooo - ooo
     G5       A5  B5
ooo  -  ooo


(arpeggiato)
       A9add         Bm4
Na-chaered palan-diriel
          A9add        F#m4
o galadhremmin ennorath,
       A9add         Bm4
aaa (vocalizzato)
       A9add        Bm
aaa   -   aaa

     Bm 
Fanuilos, le linnathon
       F#m   G    D  A   Bm 
nef aear---,siii nef aearon!


Strum: 
B5      \B5      \B5      \G  A  \
        
B5      \B5      \B5      \G A B5 :\\


     Bm
Fanuilos, le linnathon
       F#m   G    D  A   Bm 
nef aear---,siii nef aearon!


note:
la sigla 5 indica l'accordo senza la terza,
esempio B5 = note si + fa# (con eventuali raddoppi d'ottava)


posizioni arpeggiate (in TAB):

     A9add

e---------------0------
b-------------0--------
g-----------6----------
d---------7------------
a-------0--------------
e----------------------



     Bm4                       Bm4 (variazione)

e---------------0------      --------10------9-------7--
b-------------0--------      ------0-------0-------0----
g-----------7----------      ----7-------7-------7------
d---------9------------      --9-------9-------9--------
a----------------------      ---------------------------  
e----------------------      ---------------------------



    F#m4

e---------------2------
b-------------2--------
g-----------4----------
d---------4------------
a-------4--------------
e----------------------


STRUMENTALE in 12/8 :

    B5                                                                 G
A

e---2---2-2-2-0-2--2-2-2-0-!-2--2-2-2-0-5--4--!-2--2-2-2-0-2--2-2-2-2-!-----------------!
b---0---0------------------!------------------!-----------------------!-3-3-3-3--2--2---!
g---4---4-segue strumming su posizione--------!-----------------------!-0-0-0-0--2--2---!
d---4---4------------------!------------------!-----------------------!-0-0-0-0--2--2---!
a--------------------------!------------------!-----------------------!-x-x-x-x--0--0---!
e--------------------------!------------------!-----------------------!-3-3-3-3---------!

    B5                                                                 G  A  B5

e---2--2-2-2-0-2--2-2-2-0-!-2--2-2-2-0-5--4--!-2--2-2-2-0-2--2-2-2-2-!-----------------!!
b---0---------------------!------------------!-----------------------!-3--2--0---------!!
g---4-segue strumming su posizione-----------!-----------------------!-0--2--4---------!!
d---4---------------------!------------------!-----------------------!-0--2--4---------!!
a-------------------------!------------------!-----------------------!-x--0--2---------!!
e-------------------------!------------------!-----------------------!-3---------------!!



 

Visualizza in formato stampabile